Thursday, 29 August 2013

How To Play Teo Torriate (Let Us Cling Together) - Queen Guitar Lesson









|-2---2---2---2---3---3---3---3---2---2---2---2---2---3---3---0---0---|
|-3---3---3---3---3---3---3---3---3---3---3---3---3---3---3---3---3---|
|-2---2---2---2---3---3---3---3---2---2---2---2---2---3---3---3---3---|
|---0---0---0---0---0---0---0---0---0---0---0---0---0---0---0---0---0-|
|---------------------------------------------------------------------|
|---------------------------------------------------------------------|
Riff 1
|-----0-1-3-1-0-------------------|
|-2-3-----------3-2---------------|
|-2-----------------3-2-0---------|
|-------------------------3-2-0---|
|-0-----------------------------4-|
|---------------------------------|


  Dm        Gm/D    Dm                           Gm/D: xx0333
  When I'm gone no need to wonder
              Gm/D
  if I ever think of you

       Dm        Gm6/D  A#dim/D                 Gm6/D: xx0330
  the same moon shines                        A#dim/D: xx0320
       Dm         Gm6/D  A#dim/D
  the same wind blows

      Dm
  for both of us
                     Gm/D
  and time is but a paper moon
          Gm6/D   A riff 1
  be not gone

  Though I'm gone
  it's just as though
  I hold the flower that touches you
  a new life grows
  the blossom knows
  there's no one else
  could warm my heart as much as you
  be not gone

   D       G    D/F#     D      G/D     D              G/D: xx0433
  Let us cling together as the years go by
  G      A7      D    D/A A
  oh my love my love
          D
  In the quiet of the night
   A/C#    G/B           G
  let our candle always burn
          D/A            G/A     A       D             G/A: x0543(3)
  let us never lose the lessons we have learned.

|-2-0-0---|
|-3---3-2-|
|-4---2---|
|---------|
|-----0---|
|-3-------|


Chorus
  Teo tori_atte konomama iko
  aisuruhito yo
  Shizukana yoi ni
  hikar_io tomoshi
  itoshiki oshieo idaki

|-2-0-0---2---2---1-0-----1---|
|-3---3-2-3---3---3---3-2-3---|
|-4---2---2---2---3---2---2---|
|---------0-0---0---------0...|
|-----0---------------0-------|
|-3---------------3-----------|


Verse 
Hear my song still think of me
  the way you've come to think of me
  the nights grow long
  but dreams live on
  just close your pretty eyes
  and you can be with me
  dream on

Chorus

  Teo tori_atte konomama iko
  Aisuruhito yo
  Shizukana yoi ni
  Hikar_io tomoshi
  Itoshiki oshieo idaki

 Em(VII) D   A            Bm              G         E(VII): x79987
  When  I'm gone they'll say we were all fools
               A           xx777x xx798x xx765x
  but we don't understand



Em(VII) D    A          A   E/G#  A/G                 E/G#: 476454 or xx6454
  Oh   be strong don't turn your heart                 A/G: 3xx655 or xx5655
   F#7  Bm         Bm/A       G       A13              F#7: xx4656
  We're all you're all we're all for always           Bm/A: x04432
                                                    A13: x02022 or A6: x02222
Chorus 
Let us cling together as the years go by
  oh my love my love
  In the quiet of the night
  let our candle always burn
  let us never lose the lessons we have learned.


|-2---2--3-2-----2-3---3---3-----0-|
|-3---3-(5)3---5---3---3---3---3---|
|-2---2----2---2---4---4---4---4---|
|-0-0-0-0--0---2-------------------|
|--------------4---2---------------|
|------------------------3-3---3---|

|-----------0-0--(2)--|
|-7-8-7-5-3---3-2-3---|
|-7-9-7-6-4---2---2---|
|-7-----7-5-------0---|
|-0-------0---0-------|
|---------------------|

How To Play Queen - You and I (Guitar Lesson)



You And I was the B-Side to Queen Tie You Mother Down





Queen: You and I
Album: A Day At The Races

Intro D  G/D x3   G D/F  Em7
Riff 1
|---------------
|---------------
|---------------
|-----4-5--7----|
|---5-----------|
|---------------|

Verse

D  A  Bm  G G#o  D/A  A   G D/F# Em7 riff 1

Bridge

G    D    D7    G   E7   A7   G    D/F#   Dm   E7  C  G/B  Gm   A7 

Verse

Refrain

F#  Bm   F#  Bm  D   A  F#  Bm  E   A 



solo
|-----------------------------------------------------------------------|
|-----------------------------------------------------------------------|
|-----------------7-9b11-------------------------------------______-----|
|-----___---7---9---------------------------------7-9b11-----9b10r9---7-|
|-5---7/9-----------------------------___---7---9-----------------------|
|-----------------------------9-9-5---7/9-------------------------------|
[ Tab from: http://www.guitartabs.cc/tabs/q/queen/you_and_i_tab_ver_2.html ]
|-----------------------------------------------------------------------|
|--------------------------------7-10b12----10-9------------------------|
|--------------------------6/7-9-----------------10-7-------9b11____r9--|
|------------------7---9------------------------------9-6---------------|
|----------7---9--------------------------------------------------------|
|-7---10----------------------------------------------------------------|

|---------7----------------------------------------------------------------|
|-10b12-----10-------------------------------------------------------------|
|--------------9b11---7---------------------------------------------7---9--|
|-------------------------9-7------------------------7__\5----7/9----------|
|-----------------------------8b---5---___---7---9--------5----------------|
|--------------------------------------7/9---------------------------------|

|--------------------------------|
|---------------------------5----|
|-10r9__b11-11r9p7---7___\5-5h6--|
|------------------9-------------|
|--------------------------------|
|--------------------------------|

Bridge
Verse
Outro 

A    G  D/F#  Em7    D   A             G D A        D  G/D    (D  G/D) repeat and fade

guitar lessons in south shields www.rock-licks.com

Saturday, 24 August 2013

How To Play Queen - If You Cant Beat Them guitar lesson



Queen - If You Can’t Beat Them

Intro D  A G  A x2

Verse D A  G A x8

Bridge Bm  A G

|-----------------------------|
|-2-3-2-0---------------------|
|---------4/7b----------------|
|-----------------------------|
|-----------------------------|
|-----------------------------|
Choru E BE  C#m  A  E B E C#m D

|-----------------------------|
|-8b10--b10--10r8-7-----------|
|-------------------9---------|
|---------------------10r9-7--|
|-----------------------------|

|-----------------------------|----------------------------|
|-----------------------------|----------------------------|
|-----------------------------|----------------------------|
|------------------------6\0--|-------------------------6--|
|--------------2---2-4-5------|---------------2---2-4-5----|
|-2---4-5-6-------------------|-2---2-4-5-6----------------|

|-------------------------------|---------------------|
|-------------------------------|---------------------|
|-------------------------------|---------------------|
|--------------------------6\0--|-----------------9---|
|----------------2---2-4-5------|-------------4-5-7---|
|-2---2-4-5-6-------------------|-2---4-5-6-7---------|

2nd Verse

Bridge
|-------------------------------------|
|-3-2----2-3-2-0----------------------|
|-----4----------4---7-7b-------------|
|-------------------------------------|
|-------------------------------------|
|-------------------------------------|

Chorus / solo

Chorus
|-------------------------------------|
|-8b10--b10--10r8p7-------------------|
|-------------------9-6/7-8-9---------|
|-------------------9---------10r9-7--|
|-------------------------------------|
|-------------------------------------|

|-----------------------------|----------------------------|
|-----------------------------|----------------------------|
|-----------------------------|----------------------------|
|------------------------6\0--|-------------------------6--|
|--------------2---2-4-5------|---------------2---2-4-5----|
|-2---4-5-6-------------------|-2---2-4-5-6----------------|

|-------------------------------|---------------------|
|-------------------------------|---------------------|
|-------------------------------|---------------------|
|--------------------------6\0--|-----------------9---|
|----------------2---2-4-5------|-------------4-5-7---|
|-2---2-4-5-6-------------------|-2---4-5-6-7---------|

Intro Riff

Solo

|-----------------------------|----------------------------|
|-----------------------------|----------------------------|
|-----------------------------|----------------------------|
|-----------------------------|-------------7h-9p-7--------|
|--5---4-5--2-----------------|-2/5--7-9-10---------5-5-2--|
|-----------------------------|----------------------------|

|-----------------------------|----------------------------|
|-----------------------------|----------------------------|
|-----------------------------|-14b-14—14b-14-14b--12-11---|
|-4--4-5--12------------------|----------------------------|
|-----------------------------|----------------------------|
|-----------------------------|----------------------------|

|-----------------------------|-----------------------------|
|-----------------------------|-------------------------9---|
|-----------------------------|---------------7----9-11---11|
|-14-12-----------------------|--------7---7-9-9------------|
|--------14-12-10-------------|-5---7-9-9-------------------|
|-----------------------------|-----------------------------|

|-----------------------------|-----20-20-20-20--------------|
|-------15----15---15----15---|-20b-------------(22)20-18----|
|-14-16-----16---16---16------|---------------------------19-|
|-----------------------------|------------------------------|
|-----------------------------|------------------------------|
|-----------------------------|------------------------------|

|-20b-20-17-------------------|----------------------------|
|-----------20-17b------------|-----17---------------------|
|------------------19-17------|-19b---19-16-19-16----------|
|------------------------19-17|-------------------19-17-19b|
|-----------------------------|----------------------------|
|-----------------------------|----------------------------|

|--------------------------------|----------------------------|
|-12--14--15---14h15p14-12-14-15b|----------------------------|
|--------------------------------|----------------------------|
|--------------------------------|----------------------------|
|--------------------------------|----------------------------|
|--------------------------------|----------------------------|






 rock licks guitar tuition in south shields www.rock-licks.com

How To Play Queen - We Are The Champions (guitar lesson)









rock licks guitar tuition in south shields  www.rock-licks.com

Wednesday, 21 August 2013

How To Play Queen - Tenement Funster (guitar lesson)


Intro: Em    Am

Em            Am
My new purple shoes
     Em                      G
'bin amazing the people next door
G                     C
   And my rock'n'roll 45's
     Cm                        D           Dmaj7  D7
'bin enraging the folks on the lower floor


Em                    Am
I got a way  with the girls on my block
          Em                 Am
Tryin' my best be a real individual
Em                       G           G7
  And when we go down to Smokies and rock
           C            Cm         D7
They light up like it's some kinda ritual

Chorus:
Em            Am
Ooh give me a good guitar
            Em                       Am
and you can say that my hair's a disgrace
Em                 G          
or just find me an open car
G7               C              Cm          D7
   I'll make the speed of light out of this place

Solo Em   G   (G#m    Bm)x3   (Cm or Eb)

Em              Am
     I like the good things in life
    Em                            Am
But most of the best things ain't free
       Em                  G7
Its the same situation just cuts like a knife
             C               Cm                D Dmaj7 D7
When you 're young and you're poor and you're crazy

Chorus:
Em            Am
Ooh give me a good guitar
            Em                       Am
and you can say that my hair's a disgrace
Em                 G          
or just find me an open car
                 C              Cm          D7

   I'll make the speed of light out of this place

How To Play Keep Yourself Alive - Queen (guitar lesson)



Queen first single taken from the debut self titled album from 1973. This featured on the Old Grey Whistle test tho it never charted.


rock licks guitar tuition of south shields www.rock-licks.com

Tuesday, 13 August 2013

Queen: In The Lap Of The Gods... Revisited Guitar Lesson

Queen: In The Lap Of The Gods... Revisited Guitar Lesson




Queen: In The Lap Of The Gods... Revisited

32"
|-------2-----------------------------------------------------------------2--|
|-2-3-2-3-------------------------2----------------------------------2----3--|
|-2-2-2-2-------------------------2----------------------------------2----2--|
|-2-2-2-0------0------------------2---7------------------------------2----0--|
|-0-0-0-----3----2---7---5--7-4---0---5---4--5-7---6--7-/10-----10-5\0-------|
|-----------------------------------------5----------------------------------|

1'25"
|-----------2----------------------------------------------------------------|
|-22--2-22--3-------------------------2-----------------------------------2--|
|-22--2-22--2-------------------------2-----------------------------------2--|
|-22--2-22--0------0------------------2--(7)------------------------------2--|
|-00--0-00------3----2---7---5--7-4--\0---5---4v--5-7---6--7-/10-----10-5\0--|
|--------------------------------------------(5)-----------------------------|

         D 
It's so easy, but I can't do it
So risky - But I gotta chance it
         Em                E7
It's so funny, there's nothing to laugh about
    Em                    A
My money, that's all you wanna talk about
       D  F#m D7  E7        Em 
I can see what you want me to be
            A
But I'm no fool
            D           D7  D/B
It's in the lap of the Gods
G     A
Wo wo la la la oh
       D   A    Em      Bm    G
I can see what you want me to be
           A
But I'm no fool

No beginning, there's no ending
There's no meaning in my pretending
Believe me, life goes on and on and on
Forgive me when I ask you where do I belong
You say I can't set you free from me
But that's not true

             D          D7   D/B
It's in the lap of the Gods
G       A
Wo wo la la la wo
D  A  Em
Wo wo la la
Em       G
Wah wah ooh
            A
But I'm no fool
             D
It's in the lap of the Gods